INTRO
DISTORTION

E---XX-----3-33-3333----3/5-X-XX-XXXX--XX-----3-33-3333-----
A---XX-----3-33-3333----3/5-X-XX-XXXX--XX-----3-33-3333-----
D---11-4/5-4-44-4444-77-4/6-1-11-1111--11-4/5-4-44-4444-----
G---22-4/5-5-55-5555-77-5/7-2-22-2222--22-4/5-5-55-5555-----
B---22-2/3-5-55-5555-55-5/7-2-22-2222--22-2/3-5-55-5555-----
E---XX-----3-33-3333----3/5-X-XX-XXXX--XX-----3-33-3333-----

E------3/5-2------------------------------------------------
A------3/5-3------------------------------------------------
D---77-4/6-2------------------------------------------------
G---77-5/7-0------------------------------------------------
B---55-5/7-0------------------------------------------------
E------3/5-2------------------------------------------------




Ваше мнение



Капча