Tabbed by Tony Powers ([email protected])
Band : AFI
Album : Answer That and Stay Fashionable
Song : Ny-Quil
(s: denotes scratch)
(h: denotes harmonic)
(x: whatever)
(%: same as last note/chord)
Intro: (1x)
s s s s s s s s s s s s s s s s
|--------------------| |-------------------------------------------------------| |---------------------------|
|--------------------| |-------------------------------------------------------| |---------------------------|
|-9----7----9----7---| |-9--------------------------7--------------------------| |-9-----------7-------------|
|-9----7----9----7---| (1x) |-9--------------------------7--------------------------| (2x) |-9-----------7-----------9-| (1x)
|-7----5----7----5---| |-7--%-%-%--%-%--%-%--%--%-%-5--%-%-%--%-%--%-%--%--%-%-| |-7---%---%-%-5---%---%-%-9-|
|--------------------| |-------------------------------------------------------| |-------------------------7-|
Pre-verse: (1x)
h h h h h h h h h h h h h h h h h h s s s s s s s s s
|-------------------------------------------------------x-----------------------|
|-------------------------------------------------------x-----------------------|
|----------------------7----------------------------7---x-----------------7-----|
|-9--------------------7---7--------------------7---7---x-----------------7---9-| (1x)
|-9--------------------5---7--------------------7---5---x-----------------5---9-|
|-7--7-%-%-%-%-%-%-%-%-----5--5-%-%-%-%-%-%-%-%-5-------x-%-%-%-%-%-%-%-%-----7-|
Verse: (1x)
|------------------------------------------------------------------------------------------------------------------------|
|------------------------------------------------------------------------------------------------------------------------|
|-----------------------7------------------------------------7-----------------------------------------------------------|
|-9---------------------7------7-----------------------------7-----------------------------9-----------------------------| (2x)
|-9---------------------5--%-%-7-----------------------------5--%-%-%-%-%-%-%--%-%-%-%-%-%-9-----------------------------|
|-7--%-%-%-%-%-%-%--%-%--------5--%-%-%-%-%-%-%--%-%-%-%-%-%-------------------------------7--%-%-%-%-%-%-%--%-%-%-%-%-%-|
Chorus: (1x)
s s
|-----------------------------------------------------------------------------------------------------------------|
|-----------------------------------------------------------------------------------------------------------------|
|-11---------------7---------------9---------------7--------------11---------------7---------------9------------7-|
|-11---------------7---------------9---------------7--------------11---------------7---------------9------------7-| (1x)
|-9---%-%-%-%-%-%--5--%-%-%-%-%-%--7--%-%-%-%-%-%--5-%-%-%-%-%-%--9---%-%-%-%-%-%--5--%-%-%-%-%-%--7--%--%--%-%-5-|
|-----------------------------------------------------------------------------------------------------------------|
|-------------------------------------------------------------------------------------------------|
|-------------------------------------------------------------------------------------------------|
|-11---------------7---------------9---------------7--------------11---------------7--------------|
|-11---------------7---------------9---------------7--------------11---------------7--------------| (1x)
|-9---%-%-%-%-%-%--5--%-%-%-%-%-%--7--%-%-%-%-%-%--5-%-%-%-%-%-%--9---%-%-%-%-%-%--5--%-%-%-%-%-%-|
|-------------------------------------------------------------------------------------------------|
s s s s s s
|------------------------------------------------------|
|------------------------------------------------------|
|-9------------7---9------------7---9------------7-----|
|-9------------7---9------------7---9------------7---9-| (1x)
|-7--%--%--%-%-5---7--%--%--%-%-5---7--%--%--%-%-5---9-|
|----------------------------------------------------7-|
(Pre-verse: 2x)
(Verse: 1x)
(Chorus: 1x)
Bridge: (1x)
|-------------------------------------------------------------------------------------------------|
|-------------------------------------------------------------------------------------------------|
|-11---------------7---------------9---------------7--------------11---------------7--------------|
|-11---------------7---------------9---------------7--------------11---------------7--------------| (1x)
|-9---%-%-%-%-%-%--5--%-%-%-%-%-%--7--%-%-%-%-%-%--5-%-%-%-%-%-%--9---%-%-%-%-%-%--5--%-%-%-%-%-%-|
|-------------------------------------------------------------------------------------------------|
(Chorus: 1x)




Ваше мнение



Капча