band:afi
song:Malleus Maleficarum
album: black sails in the sunset
tabbed by brett waller ([email protected]
regular tuning EADGBE
*=PALM MUTE
()=STRUM ALOT
INTRO (PLAY THE FIRST PART THEN ADD THE (XX7990) THE SECOND TIME)
E-------------------------------
B--------------------9----------
G---9-9-9-9-0-0-9----9----------
D---9-9-9-9-9-9-9----7----------
A---7-7-7-7-7-7-7---------------
E-------------------------------
VERSE
E-------------------------------
B-------------------------------
G--------------7-7--4-4-4-------
D--2-2----5-5--7-7--4-4-4-------
A--2-2----5-5--5-5--2-2-2-------
E--0-0----3-3-------------------
PRE CHORUS
E-------------------------------
B-------------------------------
G---(7)---(9)---(11)------------
D---(7)---(9)---(11)------------
A-------------------------------
E-------------------------------
CHORUS
E-------------------------------------------------------
B-------------------------------------------------------
G----7-----2------------7--*--2-----------7--4--2-------
D-5--7--2--2--2------5--7--2--2--2-----5--7--4--2--2----
A-5--5--2--0--2------5--5--2--0--2-----5--5--2--0--2----
E-3-----0-----0------3-----0-----0-----3-----------0----
E-----------------------
B-----------------------
G--*--4-----------------
D--3--4-----------------
A--3--2-----------------
E--5--------------------
BRIDGE (JUST PLAY THE INTRO RIFF THEN THIS)
A B
E-----------I----------------
B-----------I----------------
G-----4-----I-----2----------
D--2--4--2--I--2--2--2-------
A--2--2--2--I--2--0--2-------
E--0-----0--I--0-----0-------
BREAKDOWN THINGY
E---------------------------------
B---------------------------------
G------9--10---(11-12--13--14)----
D--2---9--10---(11-12--13--14)----
A--2---7--8----(9--10--11--12)----
E--0------------------------------
ALRIGHT, THATS IT. YOU CAN FIGURE OUT THE STRUCTURE ON YOUR OWN. IM TOO LAZY. THIS SONG FUCKING RULES, AFI IS AWESOME. EMAIL ME IF YOU HAVE ANY QUESTIONS


Ваше мнение



Капча