Afi-Last Caress
Tabbed by:Ian Jackson ([email protected])
Tuning is normal
Intro:
e--------------------------------------------------->
B--------------------------------------------------->
G-------10-12-------10-12-10---12------------------->
D-10----10-12-10----10-12-10---12------------------->
A-10----8--10-10-----8-10--8---10------------------->
E--8-----------8------------------------------------>
Verse:
e--------------------------------------------------->
B--------------------------------------------------->
G----10--12-----10--12--10-12-10-------------------->
D-10-10--12--10-10--12--10-12-10-------------------->
A-10--8--10--10--8--10---8-10--8-------------------->
E--8----------8------------------------------------->
x6 x6 x4 x4 x4
Chorus:
e--------------------------------------------------->
B--------------------------------------------------->
G-10-12-----8--------------------------------------->
D-10-12--10-8-8------------------------------------->
A--8-10--10-6-8------------------------------------->
E---------8---6------------------------------------->
x8 x8 x4x4x4
Ending:(one last caress...)
e--------------------------------------------------->
B--------------------------------------------------->
G-----10--12---------------------------------------->
D-10--10--12---------------------------------------->
A-10---8--10---------------------------------------->
E--8------------------------------------------------>
x6 x2 x2
If its not 100% its pretty damn close...




Ваше мнение



Капча