Date: Wed, 31 Dec 1997 21:22:23 -0700
From: Rob McDonald
Subject: Tab He Who Laughs Last by AFI
HE WHO LAUGHS LAST
By AFI
From the album: Very Proud Of Ya
Intro:
E: ----------------------------------------
B: ----------------------------------------
G: -7-x-x-7-7-x-5-x-x-5-5-x--4-x-x-4-4-----
D: -7-x-x-7-7-x-5-x-x-5-5-x--4-x-x-4-4-----
A: -5-x-x-5-5-x-3-x-x-3-3-x--2-x-x-2-2-----
E: ----------------------------------------
Verse:
E: ----------------------------------------
B: ----------------------------------------
G: -7-7-7-7--10-10-10-10--12-12-12-12---5-5
D: -7-7-7-7--10-10-10-10--12-12-12-12---5-5
A: -5-5-5-5--8--8--8--8---10-10-10-10---3-3
E: ----------------------------------------
E: ----------------------------------------
B: ----------------------------------------
G: -7-7-7-7--10-10-10-10--12-12-12-12--5--5
D: -7-7-7-7--10-10-10-10--12-12-12-12--5--5
A: -5-5-5-5--8--8--8--8---10-10-10-10--3--3
E: ----------------------------------------
E: ----------------------------------------------
B: ----------------------------------------------
G: -7-7-7-7--10-10-10-10--12-12-12-12-12-12-12-12
D: -7-7-7-7--10-10-10-10--12-12-12-12-12-12-12-12
A: -5-5-5-5--8--8--8--8---10-10-10-10-10-10-10-10
E: ----------------------------------------------




Ваше мнение



Капча