Tabbed Correctly by Mxpxtom
Intro. (Clean) 2nd time 1st verse
e|--------------------------------------------------------------------- ~
B|--------------------------------------------------------------------- |
G|--------------------------------------------------------------------- |
D|-------8-------8----8-----7-----7---7-----7-----7---7-----8-----8---8 |
A|-10-10---10-10---10---8-8---8-8---8---5-5---5-5---5---6-6---6-6---6-- |
E|--------------------------------------------------------------------- |
2x
e|--------------------------------------------------------------------- |
B|--------------------------------------------------------------------- |
G|------------10------------------------------------------------------- |
D|-------8-------8----8-----7-----7---7---5-7h8-7---7-----8-----8---8-- |
A|-10-10---10------10---8-8---8-8---8---5---------5---6-6---6-6---6---- |
E|--------------------------------------------------------------------- _
Verse 1 (Clean)
P.M.>
e|------------------------------------------------------------------------
B|------------------------------------------------------------------------
G|------------------------------------------------------------------------
D|--8--8--8--8--8--8--8--8-7-7-7-7-7-7-7-7-7-7-7-7-7-7-7-7-8-8-8-8-8-8-8-8
A|-10-10-10-10-10-10-10-10-8-8-8-8-8-8-8-8-5-5-5-5-5-5-5-5-6-6-6-6-6-6-6-6
E|------------------------------------------------------------------------
Open> (Distortion)
e|------------------------------------------------------------------------
B|------------------------------------------------------------------------
G|-----------------------------------------7-7-7-7-7-7-7-7-8-8-8-8-8-8-8-8
D|--8--8--8--8--8--8--8--8-7-7-7-7-7-7-7-7-7-7-7-7-7-7-7-7-8-8-8-8-8-8-8-8
A|-10-10-10-10-10-10-10-10-8-8-8-8-8-8-8-8-5-5-5-5-5-5-5-5-6-6-6-6-6-6-6-6
E|------------------------------------------------------------------------
Chorus (Heavy Dist.) 1st & 3rd time 2nd & 4th time End 1st Chorus
e|----------------------------------------------|---------------|----
B|----------------------------------------------|---------------|---- 1stChorus
G|---------------------------------10-10-10-10--|-8-8-8-8-------|---- 2x
D|-8-8-8-8-#-10-10-10-10--5-5-5-5--10-10-10-10--|-8-8-8-8-------|-5--
A|-8-8-8-8-#-10-10-10-10--5-5-5-5--8—-8--8—-8---|-6-6-6-6-------|-5-- 2nd & 3rd:
E|-6-6-6-6-#-8--8--8--8---3-3-3-3--8--8--8—-8---|-6-6-6-6-------|-3-- 4x
Verse 2 (Distortion)
P.M.>
e|---------------------------------------------------------------------
B|---------------------------------------------------------------------
G|---------------------------------------------------------------------
D|-------8-------8----8-----7-----7---7-----7-----7---7-----8-----8---8
A|-10-10---10-10---10---8-8---8-8---8---5-5---5-5---5---6-6---6-6---6--
E|---------------------------------------------------------------------
Open P.M. Open P.M.
e|---------------------------------------------------------------------
B|---------------------------------------------------------------------
G|------------10-------------------------------------------------------
D|-------8-------8----8-----7-----7---7---5-7h8-7---7-----8-----8---8--
A|-10-10---10------10---8-8---8-8---8---5---------5---6-6---6-6---6----
E|---------------------------------------------------------------------
Last two open
P.M.
e|------------------------------------------------------
B|------------------------------------------------------
G|------------------------------------------------------
D|--8--8--8--8--8--8-7-7-7-7-7-7-7-7-7-7-7-7-8-8-8-8-8-8
A|-10-10-10-10-10-10-8-8-8-8-8-8-5-5-5-5-5-5-6-6-6-6-6-6
E|------------------------------------------------------
Open Open Open Open
e|--------------------------------------------------------------
B|--------------------------------------------------------------
G|-----------------------------------------7-7-7-8-8-8-8-8-8-8-8
D|--8--8--8--8--8--8-7-7-7-7-7-7-7-7-7-7-7-7-7-7-8-8-8-8-8-8-8-8
A|-10-10-10-10-10-10-8-8-8-8-8-8-5-5-5-5-5-5-5-5-6-6-6-6-6-6-6-6
E|--------------------------------------------------------------
Open Open Open……………………………………………
Bridge: (Distortion)
e|----------------------------------------
B|----------------------------------------
G|---------------------------------------- 2x
D|-12-12-12-12-10-10-10-10-7-7-7-7-8-8-8-8
A|-12-12-12-12-10-10-10-10-7-7-7-7-8-8-8-8
E|-10-10-10-10-8--8--8—-8--5-5-5-5-6-6-6-6
e|------------------------------------
B|------------------------------------
G|------------------------------------ 2x with a little bit of improv
D|------------------------------------
A|--8--8--8--8-7-7-7-7-7-7-7-7-8-8-8-8
E|-10-10-10-10-8-8-8-8-5-5-5-5-6-6-6-6
P.M. Open P.M. Open P.M. Open Start P.M. then Open
e|---------------------------------------------------------------------
B|---------------------------------------------------------------------
G|----------------------------------------------------8-8-8-8-8-8-8-8-8
D|3-3-3-3--5--------3-3-3-3-8--------3-3-3-3-5--------8-8-8-8-8-8-8-8-8
A|3-3-3-3--5--------3-3-3-3-8--------3-3-3-3-5--------6-6-6-6-6-6-6-6-6
E|1-1-1-1--3--------1-1-1-1-6--------1-1-1-1-3--------6-6-6-6-6-6-6-6-6
Outro
e|------------------
B|------------------
G|------------------
D|-8--------3-3-3-5-
A|-8--------3-3-3-5- Let Ring
E|-6--------1-1-1-3-

Intro
Verse 1
Chorus 1
Verse 2
Chorus 2
Bridge
Chorus 2
Outro




Ваше мнение



Капча