The versions on this site are just copies of the guitar world tab.
My tab is the best and most easy one. You dont have to play all
those confusing chords. Mine is manly power chords!?!
Intro:
e|----------------------------------------------------------------------------|
B|----------------------------------------------------------------------------|
G|--------9-------------9--11--13---------------------------------------------|
D|-----6--9--4--6----6--9--11--13---------------------------------------------|
A|-----6--7--4--6----6--7--9---11---------------------------------------------|
E|-----4-----2--4----4--------------------------------------------------------|1x then:
e|----------------------------------------------------------------------------|
B|----------------------------------------------------------------------------|
G|--888-----------------888---------------------------------------------------|
D|-------9999/444--666-------9999--0--9--8--4--6------------------------------|
A|------------------------------------9--8--4--6------------------------------|
E|------------------------------------7--6--2--4--7p0-------------------------|
Verse
|---------------------|-----------------------|------------------------|
|---------------------|-----------------------|------------------------|
|-------5-5-5-5-5-7-7-|-7-7-7-7-7-7-7-7-7-5-5-|-5-5-5-5-5-5-5-5-5-7-7--|
|-------7-7-7-7-7-5-5-|-5-5-5-5-4-4-4-4-4-3-3-|-3-3-3-3-7-7-7-7-7-5-5--|
|-(7)-----------------|-----------------------|------------------------|
|-(5)-----------------|-----------------------|------------------------|
|-----------------------|-----------------------|-----------------------|
|-----------------------|-----------------------|-----------------------|
|-7-7-7-7-5-5-5-5-5-4-4-|-4-4-4-4-5-5-5-5-5-7-7-|-7-7-7-7-7-7-7-7-7-5-5-|
|-5-5-5-5-3-3-3-3-3-5-5-|-5-5-5-5-7-7-7-7-7-5-5-|-5-5-5-5-4-4-4-4-4-3-3-|
|-----------------------|-----------------------|-----------------------|
|-----------------------|-----------------------|-----------------------|
|-----------------------|-----------------------|------------------------------|
|-----------------------|-----------------------|------------------------------|
|-5-5-5-5-5-5-5-5-5-5-5-|-5-5-5-5-4-4-4-4-4-9-9-|-9-9-9-9-12-12-12-12-12-12-12-|
|-3-3-3-3-7-7-7-7-7-3-3-|-3-3-3-3-5-5-5-5-5-7-7-|-7-7-7-7--9--9--9--9--9-10-10-|
|-----------------------|-----------------------|------------------------------|
|-----------------------|-----------------------|------------------------------|
|----------------------------------|-----------------5-5-5-5-5-5-5-5-5-5----|
|----------------------------------|-----------------5-5-5-5-5-5-5-5-5-5----|
|-12-12-12-12-12-12-12-12-12-12-12-|---------5-5-5-5-5-5-5-5-5-5-5-5-5-5----|
|-10-10-10-10-12-12-12-12-12-12-12-|---------7-7-7-7-7-7-7-7-7-7-7-7-7-7-0--|
|-------------10-10-10-10-10-10-10-|---------7-7-7-7-7-7-7-7-7-7-7-7-7-7-0--|
|----------------------------------|-5-5-5-5-5-5-5-5-5-5-5-5-5-5-5-5-5-5-0--|
Chorus: What follows....
e|----------------------------------------------------------------------------|
B|----------------------------------------------------------------------------|
G|-----9----------------------------------------------------------------------|
D|-----9------9------4-------6------------------------------------------------|
A|-----7------9------4-------6------------------------------------------------|
E|------------7------2-------4------------------------------------------------|
Bridge: I lay me down tonite.....
e|----------------------------------------------------------------------------|
B|----------------------------------------------------------------------------|
G|-----4--------------------6-------------------------------------------------|
D|-----4------4------6------6-------------------------------------------------|
A|-----2------4------6------4-------------------------------------------------|
E|------------2------4--------------------------------------------------------|
Break Down/Water Effects:
Part 2 Distorted
e|----------------------------------------------------------------------------|
B|-------4------4------------2------------------------------------------------|
G|---------4------4------------3~---------------------------------------------|
D|----6------6------6-6---4---------------------------------------------------|
A|----------------------------------------------------------------------------|
E|----------------------------------------------------------------------------| 5x then:
e|----------------------------------------------------------------------------|
B|------4------4-------7--------5---------------------------------------------|
G|--------4------4-------4--------4-------------------------------------------|
D|---6------6------6-6-----6-6------6-6~--------------------------------------|
A|----------------------------------------------------------------------------|
E|----------------------------------------------------------------------------|
e|----------------------------------------------------------------------------|
B|-------4------4------------2------------------------------------------------|
G|---------4------4------------3~---------------------------------------------|
D|----6------6------6-6---4---------------------------------------------------|
A|----------------------------------------------------------------------------|
E|----------------------------------------------------------------------------|
e|----------------------------------------------------------------------------|
B|------4------4--------7------7------7----5------5------5--------------------|
G|--------4------4--------4------4-----------4------4-------------------------|
D|---6------6------6-6------6------6----6------6------6----6------------------|
A|----------------------------------------------------------------------------|
E|----------------------------------------------------------------------------|
|-------------------------------------------|
|-------------------------------------------|
|---14-14-14-14-12-12-12-12-10-10-10-10-9-9-|
|----x--x--x--x--x--x--x--x--x--x--x--x-x-x-|
|---12-12-12-12-10-10-10-10--8--8--8--8-7-7-|
|-0-----------------------------------------|
Chorus: What follows, me as the whitest
e|----------------------------------------------------------------------------|
B|----------------------------------------------------------------------------|
G|-----9----------------------------------------------------------------------|
D|-----9------9------4-------6------------------------------------------------|
A|-----7------9------4-------6------------------------------------------------|
E|------------7------2-------4------------------------------------------------|
Outro: What follows, will swallow
e|----------------------------------------------------------------------------|
B|----------------------------------------------------------------------------|
G|--------9-------------9--11--13---------------------------------------------|
D|-----6--9--4--6----6--9--11--13---------------------------------------------|
A|-----6--7--4--6----6--7--9---11---------------------------------------------|
E|-----4-----2--4----4--------------------------------------------------------|
End with:
e|----------------------------------------------------------------------------|
B|----------------------------------------------------------------------------|
G|----------------------------------------------------------------------------|
D|--------9--8--4--6----------------------------------------------------------|
A|--------9--8--4--6----------------------------------------------------------|
E|--------7--6--2--4----------------------------------------------------------




Ваше мнение



Капча