Song:File13
Band:AFI
Album:Very Proud of Ya
tabbed by:Adam [email protected]

Verse
G:-----------------------------------------------------------------|
D:-----------------------------------------------------------------|
A:--------------------------------------------------------------5--|
E:-7-7-7-7-7-7-7-7--5--7-7-7-7-7-7-7-7--5---7-7-7-7-7-7-7-7--------|

above cont.
G:-----------------------------------------------------------------|
D:-----------------------------------------------------------------|
A:--------------------5--------------------------------------------|
E:-3-3-3-3-3-3--5-5------------------------------------------------|

little solo thing at the beginning
G:--------------------------7----9----11--9--7---------------|
D:---------------7----7--9----9-----------------7------------|
A:---------7--9----9-----------------------------------------|
E:--7--10----------------------------------------------------|

Chorus
G:------------------------------------------------------------------|
D:------------------------------------------------------------------|
A:---------5-5-5----------------------------------------------------|
E:-7-7-7----------5-5-5---7-7-7-------------------------------------|

little bridge
G:----------------------------------------------------------------|
D:----------------------------------------------------------------|
A:9-9-9-9-9-9-9-9-9-9-9-9-9-9-9-9-9-9-9-9-9-97-9-9-99-9-7-9-9-----|
E:----------------------------------------------------------------|

ending
G:----------------------------------------------------------------|
D:----------------------------------------------------------------|
A:-----------5-5-5-5--------------------7-9-----------------------|
E:--7-7-7-7-----------5-5-5-5---7--10-----------------------------|

G------------------------------------------------------------------|
D------------------------------------------------------------------|
A------------5-5-5-5-----------9-7---------------------------------|
E--7-7-7-7-----------5-5-5-5------10-7-----------------------------|




Ваше мнение



Капча