-------------------------------------------------------------------------------
EXSANGUINATION - AFI
-------------------------------------------------------------------------------
Tabbed by: danc446
Email: [email protected]
Tuning: Standard E
INTRO
e|-----------------------------------------------------------------------------|
B|-----------------------------------------------------------------------------|
G|--9-9-9-9-9-9--7-7-7-7-12-12-12-12-11-11-11-11------------------------9-11-9-|
D|--9-9-9-9-9-9--x-x-x-x--x--x--x--x--x--x--x--x-2-2-2-5-7-7-2-2-5-7-7--x--x-x-|
A|--7-7-7-7-7-7--5-5-5-5-10-10-10-10--9--9--9--9-2-2-2-5-7-7-2-2-5-7-7--7--9-7-|
E|-----------------------------------------------0-0-0-3-5-5-0-0-3-5-5---------|
FILL
e|-----------------------|
B|-----------------------|
G|-----------------------|
D|--2-2-2-2-2-2-2-2-2-2--|
A|--2-2-2-2-2-2-2-2-2-2--|
E|--0-0-0-0-0-0-0-0-0-0--|
VERSE
e|---------------------------------------------------------------------------|
B|---------------------------------------------------------------------------|
G|-9-9-9-9-7-7-7-7-5-5-5-5---------9-9-9-9-7-7-7-7-5-5-5-5-------------------|
D|-9-9-9-9-7-7-7-7-5-5-5-5-5-5-5-5-9-9-9-9-7-7-7-7-5-5-5-5-5-x-x-x-5-54-4---|
A|-7-7-7-7-5-5-5-5-3-3-3-3-5-5-5-5-7-7-7-7-5-5-5-5-3-3-3-3-5-x-x-x-5-54-4---|
E|-------------------------3-3-3-3-------------------------3-x-x-x-3-32-2---|
e|---------------------------------------------------------------------------|
B|---------------------------------------------------------------------------|
G|--9-9-9-9-7-7-7-7-5-5-5-5---------9-9-9-9-7-7-7-7-5-5-5-5------------------|
D|--9-9-9-9-7-7-7-7-5-5-5-5-5-5-5-5-9-9-9-9-7-7-7-7-5-5-5-5-5-5-5-5----------|
A|--7-7-7-7-5-5-5-5-3-3-3-3-5-5-5-5-7-7-7-7-5-5-5-5-3-3-3-3-5-5-5-5----------|
E|--------------------------3-3-3-3-------------------------3-3-3-3----------|
e|------------------------|
B|------------------------|
G|---7-7-7-7-4-4-4-4------|
D|---7-7-7-7-4-4-4-4-2-2--|
A|---5-5-5-5-2-2-2-2-2-2--|
E|-------------------0-0--|
CHORUS (First time, guitar only plays FILL at the end)
e|-----------------------------------------|
B|-----------------------------------------|
G|----------5-5-5-5---------7-7-7-7--------|
D|--2-2-2-2-5-5-5-5-5-5-5-5-7-7-7-7--2-2---|
A|--2-2-2-2-3-3-3-3-5-5-5-5-5-5-5-5--2-2---|
E|--0-0-0-0---------3-3-3-3----------0-0---|
BRIDGE (I had some trouble, but this sounds good, not exact, but good.)
e|----------------------------------------------|----------------------------|
B|-----------------------------------------PLAY-|-----------------------PLAY-|
G|--9-9-9-9-11-11-11-11-12-12-12-12-7-7-7-7-4x--|--------------7-7-7-7---2x--|
D|--x-x-x-x--x--x--x--x--x--x--x--x-x-x-x-xthen-|--2-2-5-5-5-5-7-7-7-7--THEN-|
A|--7-7-7-7--9--9--9--9-10-10-10-10-5-5-5-5-----|--2-2-5-5-5-5-5-5-5-5-------|
E|----------------------------------------------|--0-0-3-3-3-3---------------|
e|-------------------------------------------------------------------|
B|-------------------------------------------------------------------|
G|--------------------7-7-7-7--------------7-7-7-7---------4-4-4-4-4-|
D|--2-2-2-2-2-5-5-5-5-7-7-7-7--2-2-5-5-5-5-7-7-7-7-2-2-2-2-4-4-4-4-4-|
A|--2-2-2-2-2-5-5-5-5-5-5-5-5--2-2-5-5-5-5-5-5-5-5-2-2-2-2-2-2-2-2-2-|
E|--0-0-0-0-0-3-3-3-3-5-5-5-5--0-0-3-3-3-3---------0-0-0-0-----------|
| / slide up
| slide down
| h hammer-on
| p pull-off
| ~ vibrato
| + harmonic
| x Mute note
| : Let ring
===============================================================================




Ваше мнение



Капча