-------------------------------------------------------------------------------
EVER AND A DAY - AFI
-------------------------------------------------------------------------------

Tabbed by: DANC446
Email: [email protected]

Tuning: E Standard

All the other tabs I have found were really bad. I was posting stuff from
earlier albums, but I consider this to be an emergency, so here we go!

INTRO
e|---------------------------------------------------------------------------|
B|---------------------------------------------------------------------------|
G|--8-8-8-7-7-8-8-5-5-5-8-8-8-10-10-10-12-12-12-10-8-8-8-10-10-10-8-8-7-7-7--|
D|--x-x-x-x-x-x-x-x-x-x-x-x-x--x--x--x--x--x--x--x-x-x-x--x--x--x-x-x-x-x-x--|

A|--6-6-6-5-5-6-6-3-3-3-6-6-6--8--8--8-10-10-10--8-6-6-6--8--8--8-6-6-5-5-5--|
E|---------------------------------------------------------------------------|

e|---------------------------------------------------------------------------|
B|---------------------------------------------------------------------------|
G|--8-8-8-7-7-8-8-5-5-5-8-8-8-10-10-10--12-12-12-12-12-12-13-10:-10-10-10-10-|
D|--x-x-x-x-x-x-x-x-x-x-x-x-x--x--x--x---x--x--x--x--x--x--x--x:-10-10-10-10-|
A|--6-6-6-5-5-6-6-3-3-3-6-6-6--8--8--8--10-10-10-10-10-10-11--8:--8--8--8--8-|
E|---------------------------------------------------------------------------|
pm ************

VERSE
e|---------------------------------------------------------------------------|
B|---------------------------------------------------------------------------|
G|----------------------------------------------------------------play-------|
D|----------10------------------13------------------8--------------4x -------|
A|-----------------------------------------------------------------per-------|
E|--8-8-8-8----8-8--11-11-11-11----11-11---6-6-6-6----6-6---------verse------|
pm ******************************************************

VERSE FILL (during verse on repeat)
e|---------------------|
B|---------------------|
G|---------------8-----|
D|------------10---10--|
A|---3-3-3-3-----------|
E|---------------------|
pm ********

PRECHORUS/POSTCHORUS
e|-----------------------------------------------------|
B|-----------------------------------------------------|
G|------------5-5-5--5-5-5-5::------------Rings into---|
D|------------5-5-5--5-5-5-5::-------------the CHORUS--|
A|------------3-3-3--3-3-3-3::-------------------------|
E|--(8/153)-------------------------------------------|
pm ******

CHORUS
e|---------------------------------------------------------------------------|
B|---------------------------------------------------------------------------|
G|---8:-8:-8-8:----------------------------------12-10-----------------------|
D|---8:-8:-8-8:-8:-8:-8-8:-8-10-10:-10:-10-10:----x--x-----------------------|
A|---6:-6:-6-6:-8:-8:-8-8:-8-10-10:-10:-10-10:---10--8-----------------------|
E|--------------6:-6:-6-6:-6/-8--8:--8:--8--8:-------------------------------|

BRIDGE
e|---------------------------------------------------------------------------|
B|---------------------------------------------------------------------------|
G|---------------------------------------------------------------------------|
D|-------x/x/x/x/x/--xxxxxxxxxxxxxxx---5::--53-3-3-3-3-5-5-5-5|
A|-------x/x/x/x/x/--xxxxxxxxxxxxxxx---5::--53-3-3-3-3-5-5-5-5|
E|--3----x/x/x/x/x/--xxxxxxxxxxxxxxx---3::--31-1-1-1-1-3-3-3-3|
pm *******

| / slide up
| slide down
| h hammer-on
| p pull-off
| ~ vibrato
| + harmonic
| x Mute note

===============================================================================




Ваше мнение



Капча