Song-Dont Make Me ill
Band-AFI
CD- Answer That and Stay Fashionable
intro-
---------------------------------------------- end of
-------------------
---------------------------------------------- just repeat intro
-play alot-------
-55-5555--------------------------------- until singing
--------------------
-------------22-33-2-33-3333333333
-5555555555--
verse-
------------------------------------------------------------------------------
--------------------
------------------------------------------------------------------------------
---------------------
-55-5555--------------------------------------55-5555-------------------------
------------
--------------3333-33--55-5555555555--------------5555-55--33-3333333333
chrorus- (no one.....no one...)
-----------------------------------------------------
-----------------------------------------------------
-55-5555-----------------------------------------
--------------55-5555-77-7777-33-3333---
verse-
chorus- at end of chorus ---------
>means 16 -----------------------
>means 8 --------------------5
-3>-5>-3




Ваше мнение



Капча