AFI - Die Screaming

Intro
e|--------------------------|
B|--------------------------|
G|----7-----5---------------|
D|-5--7--2--5---------------|
A|-5--5--2--3---------------|
E|-3-----0------------------|
Verse
e|--------------------------|
B|--------------------------|
G|---5-7---5-7---5-7-7------|
D|-2-5-7-2-3-7-2-5-7-7------|
A|-2-3-5-2-3-5-2-3-5-5------|
E|-0-----0-----0------------|
Chorus
e|--------------------------|
B|--------------------------|
G|----7-----5---------------|
D|-5--7--2--5---------------|
A|-5--5--2--3---------------|
E|-3-----0------------------|

pretty much the same thing the whole song




Ваше мнение



Капча