-------------------------------------------------------------------------------
THE DAYS OF THE PHOENIX - AFI
-------------------------------------------------------------------------------

Intro x1
E |----5---5---2---2---2---3---3p2-0---0---0---5---5---3---3---7---7---7---7---|
B |--0---0---0---0---0---0---0-------0---0---0---0---0---0---0---0---0---0-----|
G |----------------------------------------------------------------------------|
D |----------------------------------------------------------------------------|
A |----------------------------------------------------------------------------|
E |----------------------------------------------------------------------------|

Solo x1 GUITAR 1
E |-------------2--3--5-----2--3--5-----3--2------|
B |-0--3--2--3-----------3-----------3--------3---|
G |-----------------------------------------------|
D |-----------------------------------------------|
A |-----------------------------------------------|
E |-----------------------------------------------|

Solo Background x2 GUITAR 2
E |----------------|------|
B |----------------|------|
G |----4--7--------|--4---|
D |----4--7--5--7--|------|




Ваше мнение



Капча