-------------------------------------------------------------------------------
CULT STATUS-AFI
-------------------------------------------------------------------------------

Tabbed by: danc446
Email: [email protected]

Tuning: E standard

VERSE
C5 D5 G#5 C5 Eb5 F5 Bb5
e|----------------------------------------------|
B|----------------------------------------------|
G|-5-5-5-5-5-5-7-7-7-----5-5-5-5-5-5-8-10-------|
D|-5-5-5-5-5-5-7-7-7-6-6-5-5-5-5-5-5-8-10-8-8-8-|
A|-3-3-3-3-3-3-5-5-5-6-6-3-3-3-3-3-3-6--8-8-8-8-|
E|-------------------4-4------------------6-6-6-|

CHORUS
C5 Eb5 F5 Bb5
e|-------------------------------------|
B|-------------------------------------|
G|-5-5-5-5-8-8-8-8-10-10-10-10---------|
D|-5-5-5-5-8-8-8-8-10-10-10-10-8-8-8-8-|
A|-3-3-3-3-6-6-6-6--8--8--8--8-8-8-8-8-|
E|-----------------------------6-6-6-6-|

BRIDGE
C5 Eb5 Db5 g#5 C5 Eb5 Db5 C5
e|--------------------------Bb5----------------------------------------------|
B|------------------------------------------------------9-11--9--8-----------|
G|-5-5-5-5-8-8-8-8-6-6-6-6---3-5-5-5-5-8-8-8-8-6-6-6-6--x--x--x--x--5-5-5-5--|
D|-5-5-5-5-8-8-8-8-6-6-6-6-6-3-5-5-5-5-8-8-8-8-6-6-6-6--6--8--6--5--5-5-5-5--|
A|-3-3-3-3-6-6-6-6-4-4-4-4-6-1-3-3-3-3-6-6-6-6-4-4-4-4--------------3-3-3-3--|
E|-------------------------4-------------------------------------------------|

Eb5 Db5 Ab5 C5 Eb8va Db5 Ab5
e|-------------------Bb5-------------------------Bb5|
B|--------------------------------------------------|
G|--8-8-8-8-6-6-6-6---3-5-5-5-5-8-8-8-8-6-6-6-6-----|
D|--8-8-8-8-6-6-6-6-6-3-5-5-5-5-x-x-x-x-6-6-6-6-6-8-|
A|--6-6-6-6-4-4-4-4-6-1-3-3-3-3-6-6-6-6-4-4-4-4-6-8-|
E|------------------4---------------------------4-6-|

| / slide up
| slide down
| h hammer-on
| p pull-off
| ~ vibrato
| + harmonic
| x Mute note

===============================================================================




Ваше мнение



Капча