-------------------------------------------------------------------------------
CROP TUB - AFI
-------------------------------------------------------------------------------
Tabbed by: danc446
Email: [email protected]
Tuning: Standard E
INTRO RIFF
e|-----------------------------------------------------------|
B|-----------------------------------------------------------|
G|-3-3-6-6-3-3-6--3-3-6-6-3-3-6--3-3-6-6-3-6-3-3-3-3-6-6-6-6-|
D|-3-3-6-6-3-3-6--3-3-6-6-3-3-6--3-3-6-6-3-6-3-3-3-3-6-6-6-6-|
A|-1-1-4-4-1-1-4--1-1-4-4-1-1-4--1-1-4-4-1-4-1-1-1-1-4-4-4-4-|
E|-----------------------------------------------------------|
VERSE
e|--------------------------------------------------------------|
B|--------------------------------------------------------------|
G|-6-6-6-6-3---9--6-6-6-6-3---9--6-6-6-6-3---9--6-6-6-6-9-9-9-9-|
D|-6-6-6-6-3-6-9--6-6-6-6-3-6-9--6-6-6-6-3-6-9--6-6-6-6-9-9-9-9-|
A|-4-4-4-4-1-6-7--4-4-4-4-1-6-7--4-4-4-4-1-6-7--4-4-4-4/7-7-7-7-|
E|-----------4--------------4--------------4--------------------|
CHORUS
e|----------------------------------------------------------------|
B|----------------------------------------------------------------|
G|-6-6-6-6-8-8-8-8-6-6-6-6-9-9-9-9-6-6-6-6-8-8-8-8/98/98--------|
D|-6-6-6-6-8-8-8-8-6-6-6-6-9-9-9-9-6-6-6-6-8-8-8-8/98/98--------|
A|-4-4-4-4-6-6-6-6-4-4-4-4-7-7-7-7-4-4-4-4-6-6-6-6/76/76--------|
E|----------------------------------------------------------------|
CHORUS CONT.
e|---------------------------------------------------------|
B|---------------------------------------------------------|
G|-6-6-6-6-8-8-8-8-6-6-6-6-9-8-6-8-6-6-6-6-8-8-8-8/98/98-|
D|-6-6-6-6-8-8-8-8-6-6-6-6-9-8-6-8-6-6-6-6-8-8-8-8/98/98-|
A|-4-4-4-4-6-6-6-6-4-4-4-4-7-6-4-6-4-4-4-4-6-6-6-6/76/76-|
E|---------------------------------------------------------|
BRIDGE
A#5 G#5F#5 E5
e-|-----------------------------0-|
B-|-----------------------------0-|
G-|-3-3-3-3-3-3-3-3-------9-9-9-9-|
D-|-3-3-3-3-3-3-3-3-6-4-4-9-9-9-9-|
A-|-1-1-1-1-1-1-1-1-6-4-4-7-7-7-7-|
E-|-----------------4-2-2-------0-|
| / slide up
| slide down
| h hammer-on
| p pull-off
| ~ vibrato
| + harmonic
| x Mute note
===============================================================================




Ваше мнение



Капча