-------------------------------------------------------------------------------
CHECKERED DEMON - AFI
-------------------------------------------------------------------------------

Tabbed by: danc446
Email: [email protected]

Tuning: E Standard

INTRO/CHORUS
B5 G5 A5 B5
e|---------------------------------------------------------------------------|
B|---------------------------------------------------------------------------|
G|--4-4-4-4-4-4-4-4-4--------------------------------------------------------|
D|--4-4-4-4-4-4-4-4-4--5-5-5-5-5-5-5-5--7-7-7-7-7-7-7-7--4-4-4-4-4-4-4-4-----|
A|--2-2-2-2-2-2-2-2-2--5-5-5-5-5-5-5-5--7-7-7-7-7-7-7-7--4-4-4-4-4-4-4-4-----|
E|---------------------3-3-3-3-3-3-3-3--5-5-5-5-5-5-5-5--2-2-2-2-2-2-2-2-----|

VERSE
B5 x B5 D5 E5
e|---------------------------------------------------------------|
B|---------------------------------------------------------------|
G|--4-4-4-4-4-4-4-4--7-7-7-7-7--9-9-9-9-9-9----PLAY 4x-----------|
D|--4-4-4-4-4-4-4-4--7-7-7-7-7--9-9-9-9-9-9----------------------|
A|--2-2-2-2p0-2-2-2--5-5-5-5-5--7-7-7-7-7-7----------------------|
E|---------------------------------------------------------------|

BRIDGE
B5 E5 D5 G5 B5 A5 B5 A5 G5 F#5
e|-----------------------------------------------------------------------------|
B|-----------------------------------------------------------------------------|
G|--4-4-4-4---9--7------------4--2---PLAY 4X --4-4-4-4-------------------------|
D|--4-4-4-4---9--7---5-5-5-5--4--2-------------4-4-4-4-7-7-7-7-5-5-5-5-4-4-4-4-|
A|--2-2-2-2---7--5---5-5-5-5--2--0-------------2-2-2-2-7-7-7-7-5-5-5-5-4-4-4-4-|
E|-------------------3-3-3-3---------------------------5-5-5-5-3-3-3-3-2-2-2-2-|
PM ******* *******

OUTRO
E5 D5 B5
e|---------------------------------------|
B|---------------------------------------|
G|--9-9-9-9-9-9-9-9--7-7-7-7-7-7-7---4---|
D|--9-9-9-9-9-9-9-9--7-7-7-7-7-7-7---4---|
A|--7-7-7-7-7-7-7-7--5-5-5-5-5-5-5---2---|
E|---------------------------------------|

| / slide up
| slide down
| h hammer-on
| p pull-off
| ~ vibrato
| + harmonic
| x Mute note
| : Let ring
===============================================================================




Ваше мнение



Капча