-------------------------------------------------------------------------------
CHARLES ATLAS - AFI
-------------------------------------------------------------------------------

Tabbed by: DANC446
Email: [email protected]

Tuning: E Standard

INTRO
e|-------------------------------------|
B|-------------------------------------|
G|-2:--2-2-2-2-----------------5-5-5-5-|
D|-2:--2-2-2-2-3-3-3-3-2-2-2-2-5-5-5-5-|
A|-0:--0-0-0-0-3-3-3-3-2-2-2-2-3-3-3-3-|
E|-------------1-1-1-1-0-0-0-0---------|

VERSE
e|-------------------------------------------------------------------|
B|-------------------------------------------------------------------|
G|-7-7-7-7-7-7-7-7-----------------7-7-7-7-7-7-7-7-------------10-10-|
D|-7-7-7-7-7-7-7-7-8-8-8-8-7-7-7-7-7-7-7-7-7-7-7-7-8-8-8-8-7-7-10-10-|
A|-5-5-5-5-5-5-5-5-8-8-8-8-7-7-7-7-5-5-5-5-5-5-5-5-8-8-8-8-7-7--8--8-|
E|-----------------6-6-6-6-5-5-5-5-----------------6-6-6-6-5-5-------|

e|-------------------------------------------------------------------------|
B|-------------------------------------------------------------------------|
G|-7-7-7-7-7-7-7-7---------------------------------------------------------|
D|-7-7-7-7-7-7-7-7-8-8-8-8-7-7-7-7-10-10-10-10-10-10-10-10-8-8-8-8-5-5-5-5-|
A|-5-5-5-5-5-5-5-5-8-8-8-8-7-7-7-7-10-10-10-10-10-10-10-10-8-8-8-8-5-5-5-5-|
E|-----------------6-6-6-6-5-5-5-5--8--8--8--8--8--8--8--8-6-6-6-6-3-3-3-3-|

PRECHORUS
e|-------------------------------------|---------------------------------|
B|-------------------------------------|---------------------------------|
G|-5-5-5-------------5-5-5-3-3-3-------|-----------------5-5-5-5-7-7-7-7-|
D|-5-5-5-8-8-8-5-5-5-5-5-5-3-3-3-5-5-5-|-5-5-5-5-2-2-2-2-5-5-5-5-7-7-7-7-|
A|-3-3-3-8-8-8-5-5-5-3-3-3-1-1-1-5-5-5-|-5-5-5-5-2-2-2-2-3-3-3-3-5-5-5-5-|
E|-------6-6-6-3-3-3-------------3-3-3-|-3-3-3-3-0-0-0-0-----------------|

e|-------------------------------------------------|
B|-------------------------------------------------|
G|-----------------5-5-5-5-7-7-7-7-5-5-5-5-7-7-7-7-|
D|-5-5-5-5-2-2-2-2-5-5-5-5-7-7-7-7-5-5-5-5-7-7-7-7-|
A|-5-5-5-5-2-2-2-2-3-3-3-3-5-5-5-5-3-3-3-3-5-5-5-5-|
E|-3-3-3-3-0-0-0-0---------------------------------|

SOLO RIFF
e|------------------------------8h10/17~-|
B|-------------------------8h10----------|
G|-9-9-9-9-9-9-9p7p5---------------------|
D|-9-9-9-9-9-9-------7p5h7---------------|
A|---------------------------------------|
E|---------------------------------------|

END CHORUS
e|---------------------------------|
B|---------------------------------|
G|-----------------7-7-7-7-9-9-9-9-| End on E5 (High)
D|-7-7-7-7-4-4-4-4-7-7-7-7-9-9-9-9-|
A|-7-7-7-7-4-4-4-4-5-5-5-5-7-7-7-7-|
E|-5-5-5-5-2-2-2-2-----------------|

| / slide up
| slide down
| h hammer-on
| p pull-off
| ~ vibrato
| + harmonic
| x Mute note

===============================================================================




Ваше мнение



Капча