-------------------------------------------------------------------------------
Bleed Black- Afi
-------------------------------------------------------------------------------
Tabbed by:Myloveiskaleigh
Email:[email protected]
Tuning:Standard
e|-------------------------- X4 then
B|-4---4-----4-4----4-------
G|--------------------------
D|---6----6-------6----6----
A|--------------------------
E|--------------------------
e|-------------------------- X1 then
B|-7----7----7-7-----7------
G|--------------------------
D|---5----5-------5------5--
A|--------------------------
E|--------------------------
e|-------------------------- X1 then
B|-2----2----2-2-----2------
G|--------------------------
D|---4----4------4-----4----
A|--------------------------
E|--------------------------
e|-------------------------- X1 then
B|-4---4----4-4----4--------
G|--------------------------
D|---6---6------6----6------
A|--------------------------
E|--------------------------
e|-------------------------- X1 then
B|-2----2----2-2-----2------
G|--------------------------
D|---4----4-------4----4----
A|--------------------------
E|--------------------------
e|-------------------------- X1 then
B|-5----5-----5-5-----5-----
G|--------------------------
D|---7-----7-------7-----7--
A|--------------------------
E|--------------------------
e|-------------------------- X1 then
B|-2----2------2-2-----2----
G|--------------------------
D|---4-----4-------4------4-
A|--------------------------
E|--------------------------

This Is a great song but i only kno this intro!! Have fun




Ваше мнение



Капча