AFI - Battled

Verse
e|---------------------------------------------------------------------------|
B|---------------------------------------------------------------------------|
G|---------------------------------------------------------------------------|
D|--7-7-7-5-7-7-7-5-7-7-7-3-5------------------------------------------------|
A|--7-7-7-5-7-7-7-5-7-7-7-3-5------------------------------------------------|
E|--5-5-5-3-5-5-5-3-5-5-5-1-3------------------------------------------------|

Chorus
e|---------------------------------------------------------------------------|
B|---------------------------------------------------------------------------|
G|--5---------5---------5------5------8-7-5----------------------------------|
D|--5--5---7--5---5--7--5-5-7--5--5---8-7-5--7-------------------------------|
A|--3--5---7--3---5--7--3-5-7--3--5---6-5-3--7-------------------------------|
E|-----3---5------3--5----3-5-----3----------5-------------------------------|




Ваше мнение



Капча