INTRO
e|---------------------------------------------------------------------------|
B|---------------------------------------------------------------------------|
G|-13-13-13-13-13-13-13-15-15--12-12-12-12-12-12-12-12---7-7-7-7---11--------|
D|--x--x--x--x--x--x--x--x--x---x--x--x--x--x--x--x--x---x-x-x-x----x--------|
A|-11-11-11-11-11-11-11-13-13--10-10-10-10-10-10-10-10---5-5-5-5----9--------|
E|--0--0--0--0--0--0--0--0--0---0--0--0--0--0--0--0--0---0-0-0-0----0--------|

e|----------------------------------------|
B|----------------------------------------|
G|---12----9--9--9--9--9--9--9--9--9--9---|
D|----x----x--x--x--x--x--x--x--x--x--x---|
A|---10----7--7--7--7--7--7--7--7--7--7---|
E|----0----0--0--0--0--0--0--0--0--0--0---|

VERSE
e|-----------5-5-5-5---3-3-3-3---3-3-3-3---5-5-5-5-5-5-5-5-5-5-5-5---7-7-7-7-|
B|-----------7-7-7-7---5-5-5-5---3-3-3-3---7-7-7-7-7-7-7-7-7-7-7-7---7-7-7-7-|
G|-----------7-7-7-7---5-5-5-5---4-4-4-4---7-7-7-7-7-7-7-7-7-7-7-7---7-7-7-7-|
D|--2-2-2-2--7-7-7-7---5-5-5-5---5-5-5-5---7-7-7-7-7-7-7-7-7-7-7-7---9-9-9-9-|
A|--2-2-2-2--5-5-5-5---3-3-3-3---5-5-5-5---5-5-5-5-5-5-5-5-5-5-5-5---9-9-9-9-|
E|--0-0-0-0--5-5-5-5---3-3-3-3---3-3-3-3---5-5-5-5-5-5-5-5-5-5-5-5---7-7-7-7-|

e|--0-0-0-0--5-5-5-5--3-3-3-3--|
B|--0-0-0-0--7-7-7-7--5-5-5-5--|
G|--0-0-0-0--7-7-7-7--5-5-5-5--|
D|--2-2-2-2--7-7-7-7--5-5-5-5--|
A|--2-2-2-2--5-5-5-5--3-3-3-3--|
E|--0-0-0-0--5-5-5-5--3-3-3-3--|

e|---------------------------------------------------------------------------|
B|---------------------------------------------------------------------------|
G|----------------------------8-8-8-8-11-11-11-11--12-12-12-12-12-12-12-12-12|
D|---5-5-5-5--7-7-7-7-7-7-7-7-x-x-x-x--x--x--x--x---x--x--x--x--x--x--x--x--x|
A|---5-5-5-5--7-7-7-7-7-7-7-7-6-6-6-6--9--9--9--9--10-10-10-10-10-10-10-10-10|
E|---3-3-3-3--5-5-5-5-5-5-5-5------------------------------------------------|

e|----------------------------------------------------------------------|
B|----------------------------------------------------------------------|
G|--12-12-12-12-12-12-12----------------------------------5-----7-------|
D|---x--x--x--x--x--x--x--2-2-2-2-2-2-2-2-2-2-2-2----5----5-----7-------|
A|--10-10-10-10-10-10-10--2-2-2-2-2-2-2-2-2-2-2-2----5----3-----5-------|
E|------------------------0-0-0-0-0-0-0-0-0-0-0-0----3------------------|

Chorus
e|-----------------------------------------------------------------------|
B|-----------------------------------------------------------------------|
G|--2-2-2-2-2-2-2-2------------------------------------------------------|
D|--2-2-2-2-2-2-2-2--3-3-3-3-3-3-3-3--5-5-5-5-5-5-5-5--3-3-3-3--5-5-5-5--|
A|--0-0-0-0-0-0-0-0--3-3-3-3-3-3-3-3--5-5-5-5-5-5-5-5--3-3-3-3--5-5-5-5--|
E|-------------------1-1-1-1-1-1-1-1--3-3-3-3-3-3-3-3--1-1-1-1--3-3-3-3--|

Fill at the End Of Chorus
e|-------------------------------3--3--3------|
B|-------------------------------3--3--3------|
G|--2-2-2-2-2-2-2-2-2-2-2-2-2----0--0--3------|
D|--2-2-2-2-2-2-2-2-2-2-2-2-2----0--0--3------|
A|--0-0-0-0-0-0-0-0-0-0-0-0-0-----------------|
E|-------------------------------3--3--3------|

After Bridge
e|----------------------------------------------|
B|----------------------------------------------|
G|---------7--7--2--2--2--2-----5--5--5--5--5---|
D|---5--5--7--7--2--2--2--2--3--5--5--5--5—-5---|
A|---5--5--5--5--0--0--0--0--3--3--2--2--2--2---|
E|---3--3--------------------1------------------|




Ваше мнение



Капча