Date: Wed, 18 Oct 1995 12:59:28 +0100 (MET)
From: Gerald Audenis
Subject: TAB : by

Dominique A "Hear no more, Dear no more"
Extrait de l'album "La memoire neuve"
From : [email protected]
La, il va vous falloir votre plus belle voix presleyienne.
Je ne suis pas sur du second refrain et du dernier couplet...
D'autre part, certains sont sans doute interesses par la creation d'une
Mailing list concernant Dominique A, Katerine, Miossec, Chelsea, Autour
De Lucie, Carmine. J'attends leurs E-mail avec impatience...
A bientot
Schema (1):
-----------
E:---2-----2-----2-----------
B:---2-----2-----2-----------
G:---------------------------
D:-------2-----------2-2-2-2-
A:-0---0-----0-0---0---------
E:---------------------------
Schema (2):
-----------
E:---0-----0-----
B:---0-----0-----
G:---------------
D:-2-----------2-
A:-------2---2---
E:-0---0---------
Schema (2+):
------------
Utilise en place de (2) dans les autres couplets
E:---0-----0-----0-----
B:---0-----0-----0-----
G:---------------------
D:-2-----------2-------
A:-------2---2-------2-
E:-0---0-----------0---
Schema (R) pour Refrain:
------------------------
E:---0-----0---2-----------|---0-----0---1---1-
B:---0-----0---2-----------|---0-----0---1---1-
G:-------------------------|-------------------
D:-2-----2---------2-2-2-2-|-2-----2---3---3---
A:-----2-----0---0---------|-----2-------------
E:-0-----------------------|-0-----------------
E:---0-----0-----0---------|-5-3-
B:---0-----0-----0---------|-5-3-
G:-----------------------4-|-6-4-
D:-------------2---------5-|-7-5-




Ваше мнение



Капча

Рекомендуем