Intro

E|----------------------|----------------------|
B|------------2-2-------|----------------------|
G|--9-9--5-5--2-2--5-5--|--9-9--5-5--6-6--7-7--|
D|--9-9--5-5--2-2--5-5--|--9-9--5-5--6-6--7-7--|
A|--7-7--3-3-------3-3--|--7-7--3-3--4-4--5-5--|
E|----------------------|----------------------|

Verse is exactly the same as the intro

Bridge 1&2

E|--------------------------------------------------------|
B|--------------------------------------------------------|
G|--4-4-4-4---6-6-6-6-------------9-9-9-9---11-11-11-11---|
D|--4-4-4-4---6-6-6-6---4-4-4-4---9-9-9-9---11-11-11-11---|
A|--2-2-2-2---4-4-4-4---4-4-4-4---7-7-7-7---9--9--9--9----|
E|----------------------2-2-2-2---------------------------|

Chours

E|---------------------------------------|
B|---------------------------------------|
G|--4-4-4-4--2-2-2-2--6-6-6-6--7-7-7-7---|
D|--4-4-4-4--2-2-2-2--6-6-6-6--7-7-7-7---|
A|--2-2-2-2--0-0-0-0--4-4-4-4--5-5-5-5---|
E|---------------------------------------|

Then repeat all of the above
pause during 1&2 is 4... and so on

Then 'How high can you try'

E|----------------------------------------------------|
B|----------------------------------------------------|
G|--4-4-4-4---6-6-6-6---------------------------------|
D|--4-4-4-4---6-6-6-6---4-4-4-4---2-2-2-2---4-4-4-4---|
A|--2-2-2-2---4-4-4-4---4-4-4-4---2-2-2-2---4-4-4-4---|
E|----------------------2-2-2-2---0-0-0-0---2-2-2-2---|

Play intro

Play chours x4

Play intro again




Ваше мнение



Капча