A - Coming Around
Tabbed By: Elliot Withers
EMail: [email protected]
Tuning: Standard (E A D G B E)
This is a rare 'A' song on the Starbucks single. Its so cool!
Verse
E|-----------------------------------------------||
B|-*---------------------------------------------||
G|---------14----------14----------14--------9---||
D|------14----14----14----14----14----14---9---9-||
A|-*-12----------12----------12----------7-------||
E|-----------------------------------------------||
E|-----------------------------------||
B|---------------------------------*-||
G|-----7-------7-------7-------7-----||
D|---7---7---7---7---7---7---7---7---||
A|-5-------5-------5-------5-------*-||
E|-----------------------------------||
E|---------------------------------------------||
B|---------------------------------------------||
G|-14-14-14-14-14-14-14-14-14-14-14-14-9-9-9-9-||
D|-14-14-14-14-14-14-14-14-14-14-14-14-9-9-9-9-||
A|-12-12-12-12-12-12-12-12-12-12-12-12-7-7-7-7-||
E|---------------------------------------------||
p.m. . . . . . . . . . . . .
E|---------------------------------||
B|---------------------------------||
G|-7-7-7-7-7-7-7-7-7-7-7-7-7-7-7-7-||
D|-7-7-7-7-7-7-7-7-7-7-7-7-7-7-7-7-||
A|-5-5-5-5-5-5-5-5-5-5-5-5-5-5-5-5-||
E|---------------------------------||
. . . . . . . . . . . .
E|---------------------------------||
B|---------------------------------||
G|-4-4-4-4-4-4-4-4-4-4-4-4-4-4-4-4-||
D|-4-4-4-4-4-4-4-4-4-4-4-4-4-4-4-4-||
A|-2-2-2-2-2-2-2-2-2-2-2-2-2-2-2-2-||
E|---------------------------------||
. . . . . . . . . . . .
E|---------------------------------||
B|---------------------------------||
G|-7-7-7-7-7-7-7-7-7-7-7-7-7-7-7-7-||
D|-7-7-7-7-7-7-7-7-7-7-7-7-7-7-7-7-||
A|-5-5-5-5-5-5-5-5-5-5-5-5-5-5-5-5-||
E|---------------------------------||
. . . . . . . . . . . .
E|-----------------------------------------------||
B|-*---------------------------------------------||
G|---------14----------14----------14--------9---||
D|------14----14----14----14----14----14---9---9-||
A|-*-12----------12----------12----------7-------||
E|-----------------------------------------------||
E|-----------------------------------||
B|---------------------------------*-||
G|-----7-------7-------7-------7-----||
D|---7---7---7---7---7---7---7---7---||
A|-5-------5-------5-------5-------*-||
E|-----------------------------------||
E|---------------------------------||
B|---------------------------------||
G|-4-4-4-4-4-4-4-4-4-4-4-4-4-4-4-4-||
D|-4-4-4-4-4-4-4-4-4-4-4-4-4-4-4-4-||
A|-2-2-2-2-2-2-2-2-2-2-2-2-2-2-2-2-||
E|---------------------------------||
. . . . . . . . . . . .
E|---------------------------------||
B|---------------------------------||
G|-7-7-7-7-7-7-7-7-7-7-7-7-7-7-7-7-||
D|-7-7-7-7-7-7-7-7-7-7-7-7-7-7-7-7-||
A|-5-5-5-5-5-5-5-5-5-5-5-5-5-5-5-5-||
E|---------------------------------||
. . . . . . . . . . . .
E|---------------------------------||
B|---------------------------------||
G|-4-4-4-4-4-4-4-4-4-4-4-4-4-4-4-4-||
D|-4-4-4-4-4-4-4-4-4-4-4-4-4-4-4-4-||
A|-2-2-2-2-2-2-2-2-2-2-2-2-2-2-2-2-||
E|---------------------------------||
. . . . . . . . . . . .
E|---------------------------------||
B|---------------------------------||
G|-7-7-7-7-7-7-7-7-7-7-7-7-7-7-7-7-||
D|-7-7-7-7-7-7-7-7-7-7-7-7-7-7-7-7-||
A|-5-5-5-5-5-5-5-5-5-5-5-5-5-5-5-5-||
E|---------------------------------||
Chorus
E|---------------------------------||
B|---------------------------------||
G|-2-2-2-2-2-2-2-2-2-2-2-2-2-2-2-2-||
D|-2-2-2-2-2-2-2-2-2-2-2-2-2-2-2-2-||
A|-0-0-0-0-0-0-0-0-0-0-0-0-0-0-0-0-||
E|---------------------------------||
E|---------------------------------||
B|---------------------------------||
G|-7-7-7-7-7-7-7-7-7-7-7-7-7-7-7-7-||
D|-7-7-7-7-7-7-7-7-7-7-7-7-7-7-7-7-||
A|-5-5-5-5-5-5-5-5-5-5-5-5-5-5-5-5-||
E|---------------------------------||
E|---------------------------------||
B|---------------------------------||
G|---------------------------------||
D|-5-5-5-5-5-5-5-5-5-5-5-5-5-5-5-5-||
A|-5-5-5-5-5-5-5-5-5-5-5-5-5-5-5-5-||
E|-3-3-3-3-3-3-3-3-3-3-3-3-3-3-3-3-||
E|---------------------------------||
B|---------------------------------||
G|-7-7-7-7-7-7-7-7-7-7-7-7-7-7-7-7-||
D|-7-7-7-7-7-7-7-7-7-7-7-7-7-7-7-7-||
A|-5-5-5-5-5-5-5-5-5-5-5-5-5-5-5-5-||
E|---------------------------------||
E|---------------------------------||
B|---------------------------------||
G|-2-2-2-2-2-2-2-2-2-2-2-2-2-2-2-2-||
D|-2-2-2-2-2-2-2-2-2-2-2-2-2-2-2-2-||
A|-0-0-0-0-0-0-0-0-0-0-0-0-0-0-0-0-||
E|---------------------------------||
E|---------------------------------||
B|---------------------------------||
G|-7-7-7-7-7-7-7-7-7-7-7-7-7-7-7-7-||
D|-7-7-7-7-7-7-7-7-7-7-7-7-7-7-7-7-||
A|-5-5-5-5-5-5-5-5-5-5-5-5-5-5-5-5-||
E|---------------------------------||
E|---------------------------------||
B|---------------------------------||
G|---------------------------------||
D|-5-5-5-5-5-5-5-5-5-5-5-5-5-5-5-5-||
A|-5-5-5-5-5-5-5-5-5-5-5-5-5-5-5-5-||
E|-3-3-3-3-3-3-3-3-3-3-3-3-3-3-3-3-||
E|---------------------------------||
B|---------------------------------||
G|-7-7-7-7-7-7-7-7-7-7-7-7-7-7-7-7-||
D|-7-7-7-7-7-7-7-7-7-7-7-7-7-7-7-7-||
A|-5-5-5-5-5-5-5-5-5-5-5-5-5-5-5-5-||
E|---------------------------------||
Bridge
E|-------------------------------------------------||
B|-------------------------------------------------||
G|-14-14-14-14-14-14-14-14-14-14-14-14-14-14-14-14-||
D|-14-14-14-14-14-14-14-14-14-14-14-14-14-14-14-14-||
A|-12-12-12-12-12-12-12-12-12-12-12-12-12-12-12-12-||
E|-------------------------------------------------||
p.m. . . . . . . . . . . . .
Verse 2
E|---------------------------------------------||
B|---------------------------------------------||
G|-14-14-14-14-14-14-14-14-14-14-14-14-9-9-9-9-||
D|-14-14-14-14-14-14-14-14-14-14-14-14-9-9-9-9-||
A|-12-12-12-12-12-12-12-12-12-12-12-12-7-7-7-7-||
E|---------------------------------------------||
. . . . . . . . . . . . .
E|---------------------------------||
B|---------------------------------||
G|-7-7-7-7-7-7-7-7-7-7-7-7-7-7-7-7-||
D|-7-7-7-7-7-7-7-7-7-7-7-7-7-7-7-7-||
A|-5-5-5-5-5-5-5-5-5-5-5-5-5-5-5-5-||
E|---------------------------------||
. . . . . . . . . . . .
E|---------------------------------------------||
B|---------------------------------------------||
G|-14-14-14-14-14-14-14-14-14-14-14-14-9-9-9-9-||
D|-14-14-14-14-14-14-14-14-14-14-14-14-9-9-9-9-||
A|-12-12-12-12-12-12-12-12-12-12-12-12-7-7-7-7-||
E|---------------------------------------------||
. . . . . . . . . . . . .
E|---------------------------------||
B|---------------------------------||
G|-7-7-7-7-7-7-7-7-7-7-7-7-7-7-7-7-||
D|-7-7-7-7-7-7-7-7-7-7-7-7-7-7-7-7-||
A|-5-5-5-5-5-5-5-5-5-5-5-5-5-5-5-5-||
E|---------------------------------||
. . . . . . . . . . . .
E|---------------------------------||
B|---------------------------------||
G|-4-4-4-4-4-4-4-4-4-4-4-4-4-4-4-4-||
D|-4-4-4-4-4-4-4-4-4-4-4-4-4-4-4-4-||
A|-2-2-2-2-2-2-2-2-2-2-2-2-2-2-2-2-||
E|---------------------------------||
. . . . . . . . . . . .
E|---------------------------------||
B|---------------------------------||
G|-7-7-7-7-7-7-7-7-7-7-7-7-7-7-7-7-||
D|-7-7-7-7-7-7-7-7-7-7-7-7-7-7-7-7-||
A|-5-5-5-5-5-5-5-5-5-5-5-5-5-5-5-5-||
E|---------------------------------||
. . . . . . . . . . . .
E|---------------------------------||
B|---------------------------------||
G|-4-4-4-4-4-4-4-4-4-4-4-4-4-4-4-4-||
D|-4-4-4-4-4-4-4-4-4-4-4-4-4-4-4-4-||
A|-2-2-2-2-2-2-2-2-2-2-2-2-2-2-2-2-||
E|---------------------------------||
. . . . . . . . . . . .
E|---------------------------------||
B|---------------------------------||
G|-7-7-7-7-7-7-7-7-7-7-7-7-7-7-7-7-||
D|-7-7-7-7-7-7-7-7-7-7-7-7-7-7-7-7-||
A|-5-5-5-5-5-5-5-5-5-5-5-5-5-5-5-5-||
E|---------------------------------||
Chorus
Solo
E|--------------------------------------------------------------------------||
B|-10-10-9-9-7-7-----10-10-9-9-7-7-----10-10-9-9-7-7---------9-10-9-10-9-10-||
G|---------------9-9---------------9-9---------------9-9-6------------------||
D|--------------------------------------------------------------------------||
A|--------------------------------------------------------------------------||
E|--------------------------------------------------------------------------||
E|--------------------------------------------------------------------------||
B|-10-10-9-9-7-7-----10-10-9-9-7-7-----10-10-9-9-7-7---------9-10-9-10-9-10-||
G|---------------9-9---------------9-9---------------9-9-6------------------||
D|--------------------------------------------------------------------------||
A|--------------------------------------------------------------------------||
E|--------------------------------------------------------------------------||
E|--------------------------------------------------------------------------||
B|-10-10-9-9-7-7-----10-10-9-9-7-7-----10-10-9-9-7-7---------9-10-9-10-9-10-||
G|---------------9-9---------------9-9---------------9-9-6------------------||
D|--------------------------------------------------------------------------||
A|--------------------------------------------------------------------------||
E|--------------------------------------------------------------------------||
E|--------------------------------------------------------------------------||
B|-10-10-9-9-7-7-----10-10-9-9-7-7-----10-10-9-9-7-7---------9-10-9-10-9-10-||
G|---------------9-9---------------9-9---------------9-9-6------------------||
D|--------------------------------------------------------------------------||
A|--------------------------------------------------------------------------||
E|--------------------------------------------------------------------------||
E|--------------------------------------------------------------------------||
B|-9-b-r-b-r-b-r-b-r-b-r-b-r-b-r-b-r-b-r-b-r-b-r-b-r-b-r-b-r-b-r-b-r-b-r-b-r||
G|--------------------------------------------------------------------------||
D|--------------------------------------------------------------------------||
A|--------------------------------------------------------------------------||
E|--------------------------------------------------------------------------||
Chorus
Solo 2
E|--------------------------------------------------------------------------||
B|-10-10-9-9-7-7-----10-10-9-9-7-7-----10-10-9-9-7-7---------9-10-9-10-9-10-||
G|---------------9-9---------------9-9---------------9-9-6------------------||
D|--------------------------------------------------------------------------||
A|--------------------------------------------------------------------------||
E|--------------------------------------------------------------------------||
E|--------------------------------------------------------------------------||
B|-10-10-9-9-7-7-----10-10-9-9-7-7-----10-10-9-9-7-7---------9-10-9-10-9-10-||
G|---------------9-9---------------9-9---------------9-9-6------------------||
D|--------------------------------------------------------------------------||
A|--------------------------------------------------------------------------||
E|--------------------------------------------------------------------------||
E|--------------------------------------------------------------------------||
B|-10-10-9-9-7-7-----10-10-9-9-7-7-----10-10-9-9-7-7---------9-10-9-10-9-10-||
G|---------------9-9---------------9-9---------------9-9-6------------------||
D|--------------------------------------------------------------------------||
A|--------------------------------------------------------------------------||
E|--------------------------------------------------------------------------||
E|--------------------------------------------------------------------------||
B|-10-10-9-9-7-7-----10-10-9-9-7-7-----10-10-9-9-7-7---------9-10-9-10-9-10-||
G|---------------9-9---------------9-9---------------9-9-6------------------||
D|--------------------------------------------------------------------------||
A|--------------------------------------------------------------------------||
E|--------------------------------------------------------------------------||
E|----------------------------------------------||
B|-9-b-(Full)-----------------------------------||
G|-----------------------------------2------||
D|-----------------------------------2------||
A|-----------------------------------0----------||
E|----------------------------------------------||




Ваше мнение



Капча